Monday, July 19, 2010

Chord Bass - Sheeter ft. Amy Lee















Chord Bass - Sheeter ft. Amy Lee


Intro = No Bass [0:00-0:17]

[0:18-0:47] Verse
|---------------------------------------------|
|---------------------------------------------|
|7hold-3----7hold-3----7hold-3----5---5---5---|X2
|---------------------------------------------|

[0:48-1:19] Chorus
|---------------------------------------------|
|---------------------------------------------|
|3---2------3---2------3---2------3-5-0-------|X2
|---------------------------------------------|

[1:20-1:35] Interlude
|--------------------------------------------------------------|
|-------------3-----------------3-----------------3------------|
|7hold-3--3-5---5--7hold-3--3-5---5--7hold-3--3-5---3--5--5--5-|
|--------------------------------------------------------------|

[1:36-2:05] Verse 2
|--------------------------------------------------------------|
|-------------3-----------------3-----------------3------------|
|7hold-3--3-5---5--7hold-3--3-5---5--7hold-3--3-5---3--5--5--5-|X2
|--------------------------------------------------------------|

[2:05-2:36] Chorus 2
|---------------------------------------------|
|---------------------------------------------|
|3---2------3---2------3---2------3-5-7hold/0-|X2
|---------------------------------------------|

[2:37-3:06] Verse 3
|--------------------------------------------------------------|
|-------------3-----------------3-----------------3------------|
|7hold-3--3-5---5--7hold-3--3-5---5--7hold-3--3-5---3--5--5--5-|X2
|--------------------------------------------------------------|

[3:07-3:39] Chorus 3
|---------------------------------------------|
|---------------------------------------------|
|3---2------3---2------3---2------3-5-7hold/0-|X2
|---------------------------------------------|

No comments:

Related Posts Plugin for WordPress, Blogger...